Switchback


Another note is that there are three slight variations on the main riff:
D||------------------------------------------------||
A||------------------------------------------------||
F||------------------------------------------------||
C||-0--2--0--2--2--3--2--3--3--5--3--5--5--7--5--7-||
G||-0--2--0--2--2--3--2--3--3--5--3--5--5--7--5--7-||
C||-0--2--0--2--2--3--2--3--3--5--3--5--5--7--5--7-||
and
D||------------------------------------------------||
A||------------------------------------------------||
F||------------------------------------------------||
C||-0--2--0--2--2--3--2--3--3--5--3--5-----7--5--7-||
G||-0--2--0--2--2--3--2--3--3--5--3--5-----7--5--7-||
C||-0--2--0--2--2--3--2--3--3--5--3--5-----7--5--7-||
and
D||------------------------------------------------||
A||------------------------------------------------||
F||------------------------------------------------||
C||-00-2--0--2--22-3--2--3--33-5--3--5--55-7--5--7-||
G||-00-2--0--2--22-3--2--3--33-5--3--5--55-7--5--7-||
C||-00-2--0--2--22-3--2--3--33-5--3--5--55-7--5--7-||

The use of each variant in the song is very subtle, just use them where you see fit in
of the first variant (though the third variant is generally played just before the second
of each chorus).

Intro
D||------------------------------------------------||
A||------------------------------------------------||
F||------------------------------------------------||
C||-0--2--0--2--2--3--2--3--3--5--3--5--5--7--5--7-|| x4
G||-0--2--0--2--2--3--2--3--3--5--3--5--5--7--5--7-||
C||-0--2--0--2--2--3--2--3--3--5--3--5--5--7--5--7-||

Verse
D||--------------------||
A||--------------------||
F||--------------------||
C||-0--2------3-3-3--5-|| x4
G||-0--2------3-3-3--5-||
C||-0--2------3-3-3--5-||

Pre-Chorus (Slight palm mute)
D||------------------------------------------------||
A||------------------------------------------------||
F||------------------------------------------------||
C||-0--2--0--2--2--3--2--3--3--5--3--5--5--7-------||
G||-0--2--0--2--2--3--2--3--3--5--3--5--5--7-------||
C||-0--2--0--2--2--3--2--3--3--5--3--5--5--7-------||

Chorus
D||------------------------------------------------||
A||------------------------------------------------||
F||------------------------------------------------||
C||-0--2--0--2--2--3--2--3--3--5--3--5--5--7--5--7-|| x5
G||-0--2--0--2--2--3--2--3--3--5--3--5--5--7--5--7-||
C||-0--2--0--2--2--3--2--3--3--5--3--5--5--7--5--7-||

D||---------------|| ||---------------||
A||------7-7-7----|| ||---------------||
F||------9-9-9----|| ||---------------||
C||-2-----------3-|| x3 ||-5-55-5-7-7777-||
G||-2-----------3-|| ||-5-55-5-7-7777-||
C||-2-----------3-|| ||-5-55-5-7-7777-||

Verse
D||--------------------||
A||--------------------||
F||--------------------||
C||-0--2------3-3-3--5-|| x4
G||-0--2------3-3-3--5-||
C||-0--2------3-3-3--5-||

Pre-Chorus (Slight palm mute)
D||------------------------------------------------||
A||------------------------------------------------||
F||------------------------------------------------||
C||-0--2--0--2--2--3--2--3--3--5--3--5--5--7-------||
G||-0--2--0--2--2--3--2--3--3--5--3--5--5--7-------||
C||-0--2--0--2--2--3--2--3--3--5--3--5--5--7-------||

Chorus
D||------------------------------------------------||
A||------------------------------------------------||
F||------------------------------------------------||
C||-0--2--0--2--2--3--2--3--3--5--3--5--5--7--5--7-|| x8
G||-0--2--0--2--2--3--2--3--3--5--3--5--5--7--5--7-||
C||-0--2--0--2--2--3--2--3--3--5--3--5--5--7--5--7-||

D||---------------|| ||---------------||
A||------7-7-7----|| ||---------------||
F||------9-9-9----|| ||---------------||
C||-2-----------3-|| x3 ||-5-55-5-7-7777-||
G||-2-----------3-|| ||-5-55-5-7-7777-||
C||-2-----------3-|| ||-5-55-5-7-7777-||
\_________________________________________/
x2

Bridge
D||-------------------------------------------------------------- | \
A||---------------------------------------------------------|| -- |
F||---------------------------------------------------------|| -- |
C||-2-2-2-32-2-2-2-2-2-2-52-5-5-5-5-5-5-5-5-7-7-7-7-7-7-7-7-|| -- |
G||-2-2-2-32-2-2-2-2-2-2-52-5-5-5-5-5-5-5-5-7-7-7-7-7-7-7-7-|| -- |
C||-2-2-2-32-2-2-2-2-2-2-52-5-5-5-5-5-5-5-5-7-7-7-7-7-7-7-7-|| -- |
| x2
D||--------------------------------------------------------|| -- |
A||--------------------------------------------------------|| -- |
F||--------------------------------------------------------|| -- |
C||-2-2-2-32-2-2-2-2-2-2-52--10-10-10-10-10-10-9-9-9-5-5-5-|| -- |
G||-2-2-2-32-2-2-2-2-2-2-52--10-10-10-10-10-10-9-9-9-5-5-5-|| -- |
C||-2-2-2-32-2-2-2-2-2-2-52--10-10-10-10-10-10-9-9-9-5-5-5------- | /
\___________________________/
Do not play on repeat

Pre-Chorus (Slight palm mute)
D||------------------------||
A||------------------------||
F||------------------------||
C||-3--5--3--5--5--7--5--7-||
G||-3--5--3--5--5--7--5--7-||
C||-3--5--3--5--5--7--5--7-||

Chorus
D||------------------------------------------------||
A||------------------------------------------------||
F||------------------------------------------------||
C||-0--2--0--2--2--3--2--3--3--5--3--5--5--7--5--7-|| x10
G||-0--2--0--2--2--3--2--3--3--5--3--5--5--7--5--7-||
C||-0--2--0--2--2--3--2--3--3--5--3--5--5--7--5--7-||

D||---------------|| ||---------------||
A||------7-7-7----|| ||---------------||
F||------9-9-9----|| ||---------------||
C||-2-----------3-|| x3 ||-5-55-5-7-7777-||
G||-2-----------3-|| ||-5-55-5-7-7777-||
C||-2-----------3-|| ||-5-55-5-7-7777-||
\_________________________________________/
x2

Outro
D||----------------|| ||-------------------||
A||----------------|| ||-------------------||
F||----------------|| ||-------------------||
C||-2-2-2-3---2--3-|| x7 ||-2-2-2-3---2-2-2-3-||
G||-2-2-2-3---2--3-|| ||-2-2-2-3---2-2-2-3-||
C||-2-2-2-3---2--3-|| ||-2-2-2-3---2-2-2-3-||