Own Little World


Tuning: Dropped C

Chorus (x2):

|---------------------------|--------------------------|
|---------------------------|--------------------------|
|---------------------------|--------------------------|
|---5--5--5--5--5--5--5--5--|--------------------------|
|---3--3--3--3--3--3--3--3--|--1--1--1--1--1--1--1--1--|
|---------------------------|--1--1--1--1--1--1--1--1--|

--------------------------|---------------------------|
--------------------------|---------------------------|
--------------------------|---------------------------|
--------------------------|--3--3--3--3--3--3--3--3---|
--0--0--0--0--0--0--0--0--|--1--1--1--1--1--1--1--1---|
--0--0--0--0--0--0--0--0--|---------------------------|

Post Chorus (x3):

---------------------------|--------------------------|
---------------------------|--------------------------|
---------------------------|--------------------------|
---5--3--5-----3--5--3--5--|-----3--5-----3--5--3-----|
---3--1--3-----1--3--1--3--|-----1--3-----1--3--1-----|
---------------------------|--------------------------|

Fill 1:

--------------------------|--------------------------|
--------------------------|--------------------------|
--------------------------|--------------------------|
--------------------------|--------------------------|
--1--1--1--1--1--1--1--1--|--1--3--3--3--3--5--5--5--|
--1--1--1--1--1-----------|--------------------------|

Pre-Chorus (x3):

---------------------------|--------------------------|
---------------------------|--------------------------|
---------------------------|--------------------------|
---------------------------|--------------------------|
---0--0--0--3--3--3--1--1--|--1--3--1--0--1--0--3-----|
---0--0--0--3--3--3--1--1--|--1--3--1--0--1--0--------|

Fill 2:

---------------------------|
---------------------------|
---------------------------|
---------------------------|
--10--9--9--9--9--6--5--5--|
--10--9--9--9--9--6--5--5--|

Fill 3 (x3):

--------------------------|
--------------------------|
--------------------------|
--3--3--3--3--3--3--3--3--|
--1--1--1--1--1--1--1--1--|
--------------------------|

Chorus (Key Change) (x4):

|---------------------------|--------------------------|
|---------------------------|--------------------------|
|---------------------------|--------------------------|
|---6--6--6--6--6--6--6--6--|--------------------------|
|---4--4--4--4--4--4--4--4--|--2--2--2--2--2--2--2--2--|
|---------------------------|--2--2--2--2--2--2--2--2--|

--------------------------|---------------------------|
--------------------------|---------------------------|
--------------------------|---------------------------|
--------------------------|--4--4--4--4--4--4--4--4---|
--1--1--1--1--1--1--1--1--|--2--2--2--2--2--2--2--2---|
--1--1--1--1--1--1--1--1--|---------------------------|

Post-Chorus (Key Change) (x3):

---------------------------|--------------------------|
---------------------------|--------------------------|
---------------------------|--------------------------|
---6--4--6-----4--6--4--6--|-----4--6-----4--6--4-----|
---4--2--4-----2--4--2--4--|-----2--4-----2--4--2-----|
---------------------------|--------------------------|

End:

--------------------------|------------------------||
--------------------------|------------------------||
--------------------------|------------------------||
--6--4--6-----4--6--4--6--|-----4--6---------------||
--4--2--4-----2--4--2--4--|-----2--4---------------||
--------------------------|------------------------||

Order:
- Chorus
- Post-Chorus
- Fill 1
- Pre-Chorus
- Fill 2
- Chorus
- Post-Chorus
- Fill 1
- Pre-Chorus
- Fill 2
- Post-Chorus
- Fill 3
- Chorus (Key Change)
- Post-Chorus (Key Change)
- End