Goodbye


Tuning: Dropped A# (I suggest using 12 or 13 gauge strings)

Intro
=====

PM PM PM PM PM PM PM PM PM PM PM PM PM PM PM PM
|---------------------------------------------------|
|---------------------------------------------------|
|---------------------------------------------------|
|---4--4--4--4--4--4--2--2--2--2--7--7--7--7--2--2--|
|---4--4--4--4--4--4--2--2--2--2--7--7--7--7--2--2--|
|---4--4--4--4--4--4--2--2--2--2--7--7--7--7--2--2--|

PM PM PM PM PM PM PM PM PM PM PM PM PM PM PM PM
---------------------------------------------------|
---------------------------------------------------|
---------------------------------------------------|
--5--5--5--5--5--5--0--0--0--0--0--0--9--9--9--9---|
--5--5--5--5--5--5--0--0--0--0--0--0--9--9--9--9---|
--5--5--5--5--5--5--0--0--0--0--0--0--9--9--9--9---|

Chorus (these are 8th notes):

---------------------------|---------------------------|
---------------------------|---------------------------|
---------------------------|---------------------------|
---4--4--4--2--2--7--7--2--|--5--5--5--0--0--0--9--9---|
---4--4--4--2--2--7--7--2--|--5--5--5--0--0--0--9--9---|
---4--4--4--2--2--7--7--2--|--5--5--5--0--0--0--9--9---|

First Verse Riff (1:22) (16th notes):

PM PM PM PM PM PM
----------------------------------------|
----------------------------------------|
----------------------------------------|
--4--4--4--4--4--4----------------------|
--4--4--4--4--4--4----------------------|
--4--4--4--4--4--4----------------------|

PM PM PM PM PM PM
----------------------------------------|
----------------------------------------|
----------------------------------------|
--5--5--5--5--5--5----------------------|
--5--5--5--5--5--5----------------------|
--5--5--5--5--5--5----------------------|

Second Verse Riff (2:09)(16th notes):

PM PM PM PM PM PM PM PM
-------------------------------------|-------------------------------------|
-------------------------------------|-------------------------------------|
-------------------------------------|-------------------------------------|
--4-4-4----4--4--4--4--4-------------|--5-5-5----5--5--5--5--5-------------|
--4-4-4----4--4--4--4--4-------------|--5-5-5----5--5--5--5--5-------------|
--4-4-4----4--4--4--4--4-------------|--5-5-5----5--5--5--5--5-------------|