Frozen

Tuning: Drop D (DADGBE)

Intro
=====

e|---------------------------------| x 4
B|---------------------------------|
G|---------------------------------|
D|-------------------1-------------|
A|---5---5---3---3-------1---5---5-|
D|-5---5---3---3---1---1---5---5---|

e|-----------------|
B|-----------------|
G|-----------------|
D|-----------------|
A|---5---5---3---3-|
D|-5---5---3---3---|

Bass (After the intro plays 3 times)
====================================

e|-------------------------------------|
B|-------------------------------------|
G|-------------------------------------|
D|-------------------------------------|
A|-------------------------------------|
D|-3-5-5-10-10-6-6-6-8-8-8-10-10-5-5-5-|

e|-------------------|
B|-------------------|
G|-------------------|
D|-------------------|
A|-------------------|
D|-3-5-5-10-10-6-6-6-|

Chorus Guitar 1
===============

e|-------------------------------------------------------------------------| x 6
B|-------------------------------------------------------------------------|
G|-------------------------------------------------------------------------|
D|-3-5-5-5-5-5-10-10-10-10-6-6-6-6-6-6-8-8-8-8-8-8-10-10-10-10-6-6-6-6-6-6-|
A|-3-5-5-5-5-5-10-10-10-10-6-6-6-6-6-6-8-8-8-8-8-8-10-10-10-10-6-6-6-6-6-6-|
D|-3-5-5-5-5-5-10-10-10-10-6-6-6-6-6-6-8-8-8-8-8-8-10-10-10-10-6-6-6-6-6-6-|

Guitar 2 (Start after guitar 1 plays chorus twice)
==================================================

e|-----------------------------------------| x 2
B|-----------------------------------------|
G|-----------------------6-----------------|
D|----10----10---8---8-------6----10----10-|
A|-10----10----8---8---6---6---10----10----|
E|-----------------------------------------|