Afraid This Time

Tuning : Drop C

Intro (clean acoustic)
D|--------------------------------------------------------------0-|
A|--------------------------------------------------------------0-|
F|----7---------9\-----2-----0--2-----7---------9\-----2-----0--4-|
C|-5-----/7---------0-----2--------5-----/7---------0-----2-----5-|
G|-----------0-------------------------------0------------------7-|
C|----------------------------------------------------------------|

Verse
D|-------------------------------------------------------------------|
A|-------------------------------------------------------------------|
F|-------------------------------------------------------------------|
C|-5----5--5--5-----2----2--2--2-----5--5-----7--7-----2----2--2--2--|
G|-5----5--5--5-----2----2--2--2-----5--5-----7--7-----2----2--2--2--|
C|-5----5--5--5-----2----2--2--2-----5--5-----7--7-----2----2--2--2--|

Pre-chorus
D|----------------------------|
A|----------------------------|
F|----------------------------|
C|-3----0----7--x--5--x--3----|
G|-3----0----7--x--5--x--3----|
C|-3----0----7--x--5--x--3----|

Chorus (dist.)
D|-------------------------------------------------------------------|
A|-------------------------------------------------------------------|
F|-------------------------------------------------------------------|
C|-5--5-5-5-5---7--7-7-7-7---0--0-0-0-0---2--2-2-2-2---10-10-10-10---|
G|-5--5-5-5-5---7--7-7-7-7---0--0-0-0-0---2--2-2-2-2---10-10-10-10---|
C|-5--5-5-5-5---7--7-7-7-7---0--0-0-0-0---2--2-2-2-2---10-10-10-10---|

Ending (dist.)
D|-------------------------------------------------|
A|-------------------------------------------------|
F|---------------------------------7-7-7-----------|
C|-2-0-2---2-0-2---2-0-2---2-0-2---7-7-7---0-3-0---|
G|-2-0-2---2-0-2---2-0-2---2-0-2---5-5-5---0-3-0---|
C|-2-0-2---2-0-2---2-0-2---2-0-2-----------0-3-0---|